Georges Brassens Gare au gorille ... - Rinxent Guitare de tablatures de Georges Brassens sur 911 tabs.com Georges Brassens Gare au gorille (la pompe) Tlcharge les sonneries des tubes de Georges

  • Published on
    06-Feb-2018

  • View
    214

  • Download
    0

Embed Size (px)

Transcript

  • Plus de tablatures de Georges Brassens sur 911 tabs.com

    Georges Brassens

    Gare au gorille (la pompe) Tlcharge les sonneries des tubes de Georges Brassens sur ton mobile !

    Important: Veuillez noter que la tablature ci dessous reprsente le fruit du travail de sonauteur et ne peut en aucun cas faire l'objet d'une quelconque utilisation commerciale.

    Pour ceux qui ne savent pas comment utiliser les accords :

    R La7 R

    ---3-----2-----2-----2-----2-----0-----0----0-----2-----2--...

    ---2-----3-----3-----3-----3-----2-----2----2-----2-----3--...

    ---3-----2-----2-----2-----2-----0-----0----0-----0-----2--...

    0-----------0-----------0-----------2----------2-----------...

    ------0-----------0-----------0----------0-----------0-----...

    -----------------------------------------------------------...

    Pour la partie o il chante gare au gorille c'est :

    R La7 R

    ---3-----0-----3---

    ---2-----2-----2---

    ---3-----0-----3---

    0-----------0------

    ------0------------

    Cached since : 2008-09-08 09:24:24

    Fourni par

    Pierre

    Version

    imprimable

    Niveau

    dbutant

    6.00/10Voter

    2

    Commentaires

    Voir

    Commenter

    Extrait sonore

    Dictionnaire

    d'accords

    Paroles

    Fermer cette

    fentre

    Georges

    Brassens

    Tablature, tab, partition Gare au gorille (la pompe) de Georges Brassens http://www.abc-tabs.com/cache/tab_fr_10292.htm

    1 sur 1 08/09/2008 21:20